• Corsica - Guelfucci

    Corsica - Guelfucci (Pour Mathieu)

    Corsica - Guelfucci

    (accords Sunemu)

    Am e7/b am/c am/c#
    In un scornu di lu mondu,
    Dm dm7/c am e7
    ci he un locucciu tenerezza
    Am e7/b am/c am/c#
    ind'u mio core, maestosu,
    Dm dm7/c am e7
    imbalsama di purezza
    C#m g#7 c#m c#7
    ghjuvellu di maraviglie,
    f#m f#m6 c#m g#7
    un ne circate sumiglie,
    Bis
    un truverete la para;
    Fm e7 e7/ab
    ghje unica sola e cara,

    Am g c dm e4 e7
    Corsica.

    Face sempre tant'inviglia
    su scogliu ciottu in mare,
    tesoru chi spampilla
    sacru cum'he un altare
    calma, dolce cum'agnella,
    generosa e accugliente,
    si rivolta e si ribella
    s'omu disprezza a so ghjente.

    Corsica.

    Corsica.

    Arpège (Capo 5) (Sunemu)



    E E E E E E E E E E E E E E E E
    E||--3-----------3-----------|--3-----------2-----------|
    B||-----------0-----------0--|-----------0-----------0--|
    G||--------0-----------0-----|--------0-----------0-----|
    D||-----2-----------2--------|-----2-----------2--------|
    A||--------------------------|--------------------------|
    E||--0-----------------------|--2-----------------------|


    E E E E E E E E E E E E E E E E
    --0-----------0-----------|--0-----------0-----------|
    -----------0-----------0--|-----------0-----------0--|
    --------1-----------1-----|--------1-----------1-----|
    -----2-----------2--------|-----2-----------2--------|
    --------------------------|--------------------------|
    --3-----------------------|--4-----------------------|


    E E E E E E E E E E E E E E E E
    --------------5-----------|---3-------------2---------2--|
    --1--------1-----------1--|-------------1----------------|
    --------2-----------2-----|----------2-------------2-----|
    -----2-----------2--------|-------2-------------2--------|
    --0-----------0-----------|--(0)-----------(0)-----------|
    --------------------------|------------------------------|


    E E E E E E E E E E E E H
    --0------------3------------|---2------------------(2)--------|
    -----------0-------------0--|-----------------(0)-------------|
    --------0-------------0-----|------------(0)------------------|
    -----2-------------2--------|-------(2)-----------------------|
    --2-----------(2)-----------|--(2)----------------------------|
    ----------------------------|---------------------------------|


    E E E E E E E E E E E E E E E E
    --3-----------3-----------|--3-----------2-----------|
    -----------0-----------0--|-----------0-----------0--|
    --------0-----------0-----|--------0-----------0-----|
    -----2-----------2--------|-----2-----------2--------|
    --------------------------|--------------------------|
    --0-----------------------|--2-----------------------|


    E E E E E E E E E E E E E E E E
    --0-----------0-----------|--0-----------0-----------|
    -----------0-----------0--|-----------0-----------0--|
    --------1-----------1-----|--------1-----------1-----|
    -----2-----------2--------|-----2-----------2--------|
    --------------------------|--------------------------|
    --3-----------------------|--4-----------------------|


    E E E E E E E E E E E E E E E E
    --------------5-----------|---3-------------2---------2--|
    --1--------1-----------1--|-------------1----------------|
    --------2-----------2-----|----------2-------------2-----|
    -----2-----------2--------|-------2-------------2--------|
    --0-----------0-----------|--(0)-----------(0)-----------|
    --------------------------|------------------------------|


    E E E E E E E E E E E E H
    --0------------3------------|---2------------------(2)--------|
    -----------0-------------0--|-----------------(0)-------------|
    --------0-------------0-----|------------(0)------------------|
    -----2-------------2--------|-------(2)-----------------------|
    --2-----------(2)-----------|--(2)----------------------------|
    ----------------------------|---------------------------------|



    E E E E E E E E E E E E E E E E
    --3-----------3-----------|--3-----------2-----------|
    -----------0-----------0--|-----------0-----------0--|
    --------0-----------0-----|--------0-----------0-----|
    -----2-----------2--------|-----2-----------2--------|
    --------------------------|--------------------------|
    --0-----------------------|--2-----------------------|


    E E E E E E E E E E E E E E E E
    --0-----------0-----------|--0-----------0-----------|
    -----------0-----------0--|-----------0-----------0--|
    --------1-----------1-----|--------1-----------1-----|
    -----2-----------2--------|-----2-----------2--------|
    --------------------------|--------------------------|
    --3-----------------------|--4-----------------------|


    E E E E E E E E E E E E E E E E
    --------------5-----------|---3-------------2---------2--|
    --1--------1-----------1--|-------------1----------------|
    --------2-----------2-----|----------2-------------2-----|
    -----2-----------2--------|-------2-------------2--------|
    --0-----------0-----------|--(0)-----------(0)-----------|
    --------------------------|------------------------------|


    E E E E E E E E E E E E H
    --0------------3------------|---2------------------(2)--------|
    -----------0-------------0--|-----------------(0)-------------|
    --------0-------------0-----|------------(0)------------------|
    -----2-------------2--------|-------(2)-----------------------|
    --2-----------(2)-----------|--(2)----------------------------|
    ----------------------------|---------------------------------|


    E E E E E E E E E E E E E E E E
    --3-----------3-----------|--3-----------2-----------|
    -----------0-----------0--|-----------0-----------0--|
    --------0-----------0-----|--------0-----------0-----|
    -----2-----------2--------|-----2-----------2--------|
    --------------------------|--------------------------|
    --0-----------------------|--2-----------------------|


    E E E E E E E E E E E E E E E E
    --0-----------0-----------|--0-----------0-----------|
    -----------0-----------0--|-----------0-----------0--|
    --------1-----------1-----|--------1-----------1-----|
    -----2-----------2--------|-----2-----------2--------|
    --------------------------|--------------------------|
    --3-----------------------|--4-----------------------|


    E E E E E E E E E E E E E E E E
    --------------5-----------|---3-------------2---------2--|
    --1--------1-----------1--|-------------1----------------|
    --------2-----------2-----|----------2-------------2-----|
    -----2-----------2--------|-------2-------------2--------|
    --0-----------0-----------|--(0)-----------(0)-----------|
    --------------------------|------------------------------|


    E E E E E E E E E E E E H
    --0------------3------------|---2------------------(2)--------|
    -----------0-------------0--|-----------------(0)-------------|
    --------0-------------0-----|------------(0)------------------|
    -----2-------------2--------|-------(2)-----------------------|
    --2-----------(2)-----------|--(2)----------------------------|
    ----------------------------|---------------------------------|


    E E E E E E E E E E E E H
    --4--------4--7--------7--|--7---L----L---(7)--(7)--------||
    --------4-----------4-----|----------(4)------------------||
    -----4-----------4--------|-----(4)-----------------------||
    --------------------------|-------------------------------||
    --------------------------|-------------------------------||
    --4-----------4-----------|--3---L----L----L----L---------||

    Corse

    Il est au monde
    un lieu de tendresse
    qui embaume mon coeur
    de pureté
    joyau merveilleux
    il n'a pas de semblable
    il n'a pas son pareil
    il est unique, elle est merveille :

    Corse.

    Il fait envie tellement
    ce rocher dans la mer
    trésor étincelant
    sacré comme un autel
    doux, généreux, accueillant et serein
    il se révolte et se rebelle
    si l'on méprise les siens.

    Corse.

    Partager via Gmail

  • Commentaires

    Aucun commentaire pour le moment

    Suivre le flux RSS des commentaires


    Ajouter un commentaire

    Nom / Pseudo :

    E-mail (facultatif) :

    Site Web (facultatif) :

    Commentaire :