• ZAZ - La Fée

    ZAZ - La Fée

    Pour elle et eux ... pour moi (Photo Edward Weston 1936)

    ZAZ - La Fée

    Capo 5

    Intro: Do 8 mesures

    Do
    Moi aussi j'ai une fée chez moi. Sur les gouttières, ruisselantes
    Lam
    Je l'ai trouvé sur un toit. Dans sa traîne brûlante
    Fa
    C'était un matin, ça sentait le café. Tout était recouvert de givre
    Sol7
    Elle s'était cachée sous un livre. Et la lune, finissait ivre
    C
    Moi aussi j'ai une fée chez moi. Et sa traîne est brûlée
    Am
    Elle doit bien savoir qu'elle ne peut pas. Ne pourra jamais plus voler
    F
    D'autre ont essayé avant elle. Avant toi, une autre était là.
    G7
    Je l'ai trouvée repliée sous ses ailes. Et j'ai cru qu'elle avait froid.
    C
    Moi aussi j'ai une fée chez moi. Depuis mes étagères, elle regarde en
    l'air...
    Am
    La télévision en pensant. Que dehors c'est la guerre.
    F
    Elle lit des périodiques d'hiver. Et reste à la maison
    G7
    A la fenêtre, comptant les heures. A la fenêtre, comptant les heures
    Am G7 Am G7
    Oh oh Ah ah Oh oh Ah ah Oh oh Ah ah
    C
    Moi aussi j'ai une fée chez moi. Et lorsque qu'elle prend son déjeuner
    Am
    Elle fait un bruit avec ses ailes grillées. Et je sais bien qu'elle est
    déréglée.
    F
    Mais je préfère l'embrasser. Ou la tenir entre mes doigts
    G7
    Moi aussi j'ai une fée chez moi. Qui voudrait voler, mais ne le peut pas
    C Am F G7
    (instrumental)...................
    Am G7 Am G7 C
    (instrumental)...................

    DETAIL DU RYTHME (avec accords de passage):
    Capo 5 (jouer 2 fois chaque ligne)
    x2 C Csus4 C
    ||--0-----0--0-----1-----0----|-----0-----0--0-----0------||
    ||--1-----1--1-----1-----1----|-----1-----1--1-----1------||
    ||*-0-----0--0-----0-----0----|-----0-----0--0-----0-----*||
    ||*-2-----2--2-----3-----2----|-----2-----2--2-----2-----*||
    ||--3-----3--3-----3-----3----|-----3-----3--3-----3------||
    ||----------------------------|---------------------------||
    x2 Am F/A Am
    ||--0-----0--0-----1-----0----|-----0-----0--0-----0------||
    ||--1-----1--1-----1-----1----|-----1-----1--1-----1------||
    ||*-2-----2--2-----2-----2----|-----2-----2--2-----2-----*||
    ||*-2-----2--2-----3-----2----|-----2-----2--2-----2-----*||
    ||--0-----0--0-----0-----0----|-----0-----0--0-----0------||
    ||----------------------------|---------------------------||
    x2 F Fadd9 F
    ||--1-----1--1-----3-----1----|-----1-----1--1-----1------||
    ||--1-----1--1-----1-----1----|-----1-----1--1-----1------||
    ||*-2-----2--2-----2-----2----|-----2-----2--2-----2-----*||
    ||*-3-----3--3-----3-----3----|-----3-----3--3-----3-----*||
    ||----------------------------|---------------------------||
    ||----------------------------|---------------------------||
    x2 G7 G G7
    ||--1-----1--1-----3-----1----|-----1-----1--1-----1------||
    ||--0-----0--0-----0-----0----|-----0-----0--0-----0------||
    ||*-0-----0--0-----0-----0----|-----0-----0--0-----0-----*||
    ||*-0-----0--0-----0-----0----|-----0-----0--0-----0-----*||
    ||--2-----2--2-----2-----2----|-----2-----2--2-----2------||
    ||--3-----3--3-----3-----3----|-----3-----3--3-----3------||

     

     

    Partager via Gmail

  • Commentaires

    Aucun commentaire pour le moment

    Suivre le flux RSS des commentaires


    Ajouter un commentaire

    Nom / Pseudo :

    E-mail (facultatif) :

    Site Web (facultatif) :

    Commentaire :